  0
SECTION
  2
HEADER
  9
$ACADVER
  1
AC1015
  9
$ACADMAINTVER
 70
     6
  9
$DWGCODEPAGE
  3
ANSI_1254
  9
$INSBASE
 10
0.0
 20
0.0
 30
0.0
  9
$EXTMIN
 10
0.0
 20
0.0
 30
0.0
  9
$EXTMAX
 10
279.4
 20
215.9
 30
0.0
  9
$LIMMIN
 10
0.0
 20
0.0
  9
$LIMMAX
 10
279.4
 20
215.9
  9
$ORTHOMODE
 70
     0
  9
$REGENMODE
 70
     1
  9
$FILLMODE
 70
     1
  9
$QTEXTMODE
 70
     0
  9
$MIRRTEXT
 70
     1
  9
$LTSCALE
 40
1.0
  9
$ATTMODE
 70
     1
  9
$TEXTSIZE
 40
3.5
  9
$TRACEWID
 40
1.0
  9
$TEXTSTYLE
  7
Standard
  9
$CLAYER
  8
0
  9
$CELTYPE
  6
ByLayer
  9
$CECOLOR
 62
   256
  9
$CELTSCALE
 40
1.0
  9
$DISPSILH
 70
     0
  9
$DIMSCALE
 40
1.0
  9
$DIMASZ
 40
3.5
  9
$DIMEXO
 40
1.0
  9
$DIMDLI
 40
3.75
  9
$DIMRND
 40
0.0
  9
$DIMDLE
 40
0.0
  9
$DIMEXE
 40
1.0
  9
$DIMTP
 40
0.0
  9
$DIMTM
 40
0.0
  9
$DIMTXT
 40
3.5
  9
$DIMCEN
 40
2.5
  9
$DIMTSZ
 40
0.0
  9
$DIMTOL
 70
     0
  9
$DIMLIM
 70
     0
  9
$DIMTIH
 70
     1
  9
$DIMTOH
 70
     1
  9
$DIMSE1
 70
     0
  9
$DIMSE2
 70
     0
  9
$DIMTAD
 70
     1
  9
$DIMZIN
 70
     0
  9
$DIMBLK
  1

  9
$DIMASO
 70
     1
  9
$DIMSHO
 70
     1
  9
$DIMPOST
  1

  9
$DIMAPOST
  1

  9
$DIMALT
 70
     0
  9
$DIMALTD
 70
     3
  9
$DIMALTF
 40
0.0393700787
  9
$DIMLFAC
 40
1.0
  9
$DIMTOFL
 70
     1
  9
$DIMTVP
 40
0.0
  9
$DIMTIX
 70
     0
  9
$DIMSOXD
 70
     0
  9
$DIMSAH
 70
     0
  9
$DIMBLK1
  1

  9
$DIMBLK2
  1

  9
$DIMSTYLE
  2
ISO-25
  9
$DIMCLRD
 70
     0
  9
$DIMCLRE
 70
     0
  9
$DIMCLRT
 70
     0
  9
$DIMTFAC
 40
1.0
  9
$DIMGAP
 40
1.524
  9
$DIMJUST
 70
     0
  9
$DIMSD1
 70
     0
  9
$DIMSD2
 70
     0
  9
$DIMTOLJ
 70
     0
  9
$DIMTZIN
 70
     0
  9
$DIMALTZ
 70
     0
  9
$DIMALTTZ
 70
     0
  9
$DIMUPT
 70
     0
  9
$DIMDEC
 70
     2
  9
$DIMTDEC
 70
     2
  9
$DIMALTU
 70
     2
  9
$DIMALTTD
 70
     3
  9
$DIMTXSTY
  7
Standard
  9
$DIMAUNIT
 70
     0
  9
$DIMADEC
 70
     2
  9
$DIMALTRND
 40
0.0
  9
$DIMAZIN
 70
     0
  9
$DIMDSEP
 70
    44
  9
$DIMATFIT
 70
     3
  9
$DIMFRAC
 70
     0
  9
$DIMLDRBLK
  1

  9
$DIMLUNIT
 70
     2
  9
$DIMLWD
 70
    -2
  9
$DIMLWE
 70
    -2
  9
$DIMTMOVE
 70
     0
  9
$LUNITS
 70
     2
  9
$LUPREC
 70
     2
  9
$SKETCHINC
 40
1.0
  9
$FILLETRAD
 40
10.0
  9
$AUNITS
 70
     0
  9
$AUPREC
 70
     2
  9
$MENU
  1
.
  9
$ELEVATION
 40
0.0
  9
$PELEVATION
 40
0.0
  9
$THICKNESS
 40
0.0
  9
$LIMCHECK
 70
     0
  9
$CHAMFERA
 40
0.0
  9
$CHAMFERB
 40
0.0
  9
$CHAMFERC
 40
0.0
  9
$CHAMFERD
 40
0.0
  9
$SKPOLY
 70
     0
  9
$TDCREATE
 40
2458985.699663738
  9
$TDUCREATE
 40
2458985.574663738
  9
$TDUPDATE
 40
2458985.699664028
  9
$TDUUPDATE
 40
2458985.574664028
  9
$TDINDWG
 40
0.0000000116
  9
$TDUSRTIMER
 40
0.0000000116
  9
$USRTIMER
 70
     1
  9
$ANGBASE
 50
0.0
  9
$ANGDIR
 70
     0
  9
$PDMODE
 70
     0
  9
$PDSIZE
 40
-1.0
  9
$PLINEWID
 40
0.0
  9
$SPLFRAME
 70
     0
  9
$SPLINETYPE
 70
     6
  9
$SPLINESEGS
 70
     8
  9
$HANDSEED
  5
F1
  9
$SURFTAB1
 70
     6
  9
$SURFTAB2
 70
     6
  9
$SURFTYPE
 70
     6
  9
$SURFU
 70
     6
  9
$SURFV
 70
     6
  9
$UCSBASE
  2

  9
$UCSNAME
  2

  9
$UCSORG
 10
0.0
 20
0.0
 30
0.0
  9
$UCSXDIR
 10
1.0
 20
0.0
 30
0.0
  9
$UCSYDIR
 10
0.0
 20
1.0
 30
0.0
  9
$UCSORTHOREF
  2

  9
$UCSORTHOVIEW
 70
     0
  9
$UCSORGTOP
 10
0.0
 20
0.0
 30
0.0
  9
$UCSORGBOTTOM
 10
0.0
 20
0.0
 30
0.0
  9
$UCSORGLEFT
 10
0.0
 20
0.0
 30
0.0
  9
$UCSORGRIGHT
 10
0.0
 20
0.0
 30
0.0
  9
$UCSORGFRONT
 10
0.0
 20
0.0
 30
0.0
  9
$UCSORGBACK
 10
0.0
 20
0.0
 30
0.0
  9
$PUCSBASE
  2

  9
$PUCSNAME
  2

  9
$PUCSORG
 10
0.0
 20
0.0
 30
0.0
  9
$PUCSXDIR
 10
1.0
 20
0.0
 30
0.0
  9
$PUCSYDIR
 10
0.0
 20
1.0
 30
0.0
  9
$PUCSORTHOREF
  2

  9
$PUCSORTHOVIEW
 70
     0
  9
$PUCSORGTOP
 10
0.0
 20
0.0
 30
0.0
  9
$PUCSORGBOTTOM
 10
0.0
 20
0.0
 30
0.0
  9
$PUCSORGLEFT
 10
0.0
 20
0.0
 30
0.0
  9
$PUCSORGRIGHT
 10
0.0
 20
0.0
 30
0.0
  9
$PUCSORGFRONT
 10
0.0
 20
0.0
 30
0.0
  9
$PUCSORGBACK
 10
0.0
 20
0.0
 30
0.0
  9
$USERI1
 70
     0
  9
$USERI2
 70
     0
  9
$USERI3
 70
     0
  9
$USERI4
 70
     0
  9
$USERI5
 70
     0
  9
$USERR1
 40
0.0
  9
$USERR2
 40
0.0
  9
$USERR3
 40
0.0
  9
$USERR4
 40
0.0
  9
$USERR5
 40
0.0
  9
$WORLDVIEW
 70
     1
  9
$SHADEDGE
 70
     3
  9
$SHADEDIF
 70
    70
  9
$TILEMODE
 70
     1
  9
$MAXACTVP
 70
    64
  9
$PINSBASE
 10
0.0
 20
0.0
 30
0.0
  9
$PLIMCHECK
 70
     0
  9
$PEXTMIN
 10
1.0000000000E+20
 20
1.0000000000E+20
 30
1.0000000000E+20
  9
$PEXTMAX
 10
-1.0000000000E+20
 20
-1.0000000000E+20
 30
-1.0000000000E+20
  9
$PLIMMIN
 10
0.0
 20
0.0
  9
$PLIMMAX
 10
420.0
 20
297.0
  9
$UNITMODE
 70
     0
  9
$VISRETAIN
 70
     1
  9
$PLINEGEN
 70
     0
  9
$PSLTSCALE
 70
     1
  9
$TREEDEPTH
 70
  3020
  9
$CMLSTYLE
  2
Standard
  9
$CMLJUST
 70
     0
  9
$CMLSCALE
 40
20.0
  9
$PROXYGRAPHICS
 70
     1
  9
$MEASUREMENT
 70
     1
  9
$CELWEIGHT
370
    -1
  9
$ENDCAPS
280
     0
  9
$JOINSTYLE
280
     0
  9
$LWDISPLAY
290
     1
  9
$INSUNITS
 70
     4
  9
$HYPERLINKBASE
  1

  9
$STYLESHEET
  1

  9
$XEDIT
290
     1
  9
$CEPSNTYPE
380
     0
  9
$PSTYLEMODE
290
     1
  9
$FINGERPRINTGUID
  2
{04c33e09-54d7-4dc9-ae53-73c0d5945b0e}
  9
$VERSIONGUID
  2
{FAEB1C32-E019-11D5-929B-00C0DF256EC4}
  9
$EXTNAMES
290
     1
  9
$PSVPSCALE
 40
0.0
  9
$OLESTARTUP
290
     0
  0
ENDSEC
  0
SECTION
  2
CLASSES
  0
CLASS
  1
ACDBDICTIONARYWDFLT
  2
AcDbDictionaryWithDefault
  3
ObjectDBX Classes
 90
        0
280
     0
281
     0
  0
CLASS
  1
VISUALSTYLE
  2
AcDbVisualStyle
  3
ObjectDBX Classes
 90
     4095
280
     0
281
     0
  0
CLASS
  1
MATERIAL
  2
AcDbMaterial
  3
ObjectDBX Classes
 90
     1153
280
     0
281
     0
  0
CLASS
  1
SCALE
  2
AcDbScale
  3
ObjectDBX Classes
 90
     1153
280
     0
281
     0
  0
CLASS
  1
TABLESTYLE
  2
AcDbTableStyle
  3
ObjectDBX Classes
 90
     4095
280
     0
281
     0
  0
CLASS
  1
MLEADERSTYLE
  2
AcDbMLeaderStyle
  3
ACDB_MLEADERSTYLE_CLASS
 90
     4095
280
     0
281
     0
  0
CLASS
  1
SUN
  2
AcDbSun
  3
SCENEOE
 90
     1153
280
     0
281
     0
  0
CLASS
  1
ACDBPLACEHOLDER
  2
AcDbPlaceHolder
  3
ObjectDBX Classes
 90
        0
280
     0
281
     0
  0
CLASS
  1
LAYOUT
  2
AcDbLayout
  3
ObjectDBX Classes
 90
        0
280
     0
281
     0
  0
ENDSEC
  0
SECTION
  2
TABLES
  0
TABLE
  2
VPORT
  5
8
330
0
100
AcDbSymbolTable
 70
     1
  0
VPORT
  5
29
330
8
100
AcDbSymbolTableRecord
100
AcDbViewportTableRecord
  2
*Active
 70
     0
 10
0.0
 20
0.0
 11
1.0
 21
1.0
 12
139.7
 22
107.95
 13
0.0
 23
0.0
 14
10.0
 24
10.0
 15
10.0
 25
10.0
 16
0.0
 26
0.0
 36
1.0
 17
0.0
 27
0.0
 37
0.0
 40
215.9
 41
1.2941176471
 42
50.0
 43
0.0
 44
0.0
 50
0.0
 51
0.0
 71
     0
 72
  2000
 73
     1
 74
     3
 75
     0
 76
     0
 77
     0
 78
     0
281
     0
 65
     1
110
0.0
120
0.0
130
0.0
111
1.0
121
0.0
131
0.0
112
0.0
122
1.0
132
0.0
 79
     0
146
0.0
  0
ENDTAB
  0
TABLE
  2
LTYPE
  5
5
330
0
100
AcDbSymbolTable
 70
     6
  0
LTYPE
  5
14
330
5
100
AcDbSymbolTableRecord
100
AcDbLinetypeTableRecord
  2
ByBlock
 70
     0
  3

 72
    65
 73
     0
 40
0.0
  0
LTYPE
  5
15
330
5
100
AcDbSymbolTableRecord
100
AcDbLinetypeTableRecord
  2
ByLayer
 70
     0
  3

 72
    65
 73
     0
 40
0.0
  0
LTYPE
  5
16
330
5
100
AcDbSymbolTableRecord
100
AcDbLinetypeTableRecord
  2
Continuous
 70
     0
  3
Solid line
 72
    65
 73
     0
 40
0.0
  0
LTYPE
  5
6E
330
5
100
AcDbSymbolTableRecord
100
AcDbLinetypeTableRecord
  2
HIDDEN
 70
     0
  3
Hidden __ __ __ __ __ __ __ __ __ __ __ __ __ __
 72
    65
 73
     2
 40
1.905
 49
1.27
 74
     0
 49
-0.635
 74
     0
  0
LTYPE
  5
6F
330
5
100
AcDbSymbolTableRecord
100
AcDbLinetypeTableRecord
  2
PHANTOM
 70
     0
  3
Phantom ______  __  __  ______  __  __  ______
 72
    65
 73
     6
 40
12.7
 49
6.35
 74
     0
 49
-1.27
 74
     0
 49
1.27
 74
     0
 49
-1.27
 74
     0
 49
1.27
 74
     0
 49
-1.27
 74
     0
  0
LTYPE
  5
70
330
5
100
AcDbSymbolTableRecord
100
AcDbLinetypeTableRecord
  2
CENTER
 70
     0
  3
Center ____ _ ____ _ ____ _ ____ _ ____ _ ____
 72
    65
 73
     4
 40
10.16
 49
6.35
 74
     0
 49
-1.27
 74
     0
 49
1.27
 74
     0
 49
-1.27
 74
     0
  0
LTYPE
  5
71
330
5
100
AcDbSymbolTableRecord
100
AcDbLinetypeTableRecord
  2
CENTERX2
 70
     0
  3
Center (2x) ________  __  ________  __  _____
 72
    65
 73
     4
 40
20.32
 49
12.7
 74
     0
 49
-2.54
 74
     0
 49
2.54
 74
     0
 49
-2.54
 74
     0
  0
LTYPE
  5
72
330
5
100
AcDbSymbolTableRecord
100
AcDbLinetypeTableRecord
  2
DOT2
 70
     0
  3
Dot (.5x) ........................................
 72
    65
 73
     2
 40
0.635
 49
0.0
 74
     0
 49
-0.635
 74
     0
  0
ENDTAB
  0
TABLE
  2
LAYER
  5
2
330
0
100
AcDbSymbolTable
 70
    17
  0
LAYER
  5
10
330
2
100
AcDbSymbolTableRecord
100
AcDbLayerTableRecord
  2
0
 70
     0
 62
     7
  6
Continuous
370
    -3
390
F
  0
LAYER
  5
73
330
2
100
AcDbSymbolTableRecord
100
AcDbLayerTableRecord
  2
FORMAT
 70
     0
 62
     7
  6
Continuous
370
    -3
390
F
  0
LAYER
  5
74
330
2
100
AcDbSymbolTableRecord
100
AcDbLayerTableRecord
  2
YARDIMCI_GEOMETRI
 70
     0
 62
    -6
  6
Continuous
290
     0
370
    -3
390
F
  0
LAYER
  5
75
330
2
100
AcDbSymbolTableRecord
100
AcDbLayerTableRecord
  2
SAYFA_CERCEVESI
 70
     0
 62
     7
  6
Continuous
370
    25
390
F
  0
LAYER
  5
76
330
2
100
AcDbSymbolTableRecord
100
AcDbLayerTableRecord
  2
ANTET
 70
     0
 62
     7
  6
Continuous
370
    -3
390
F
  0
LAYER
  5
77
330
2
100
AcDbSymbolTableRecord
100
AcDbLayerTableRecord
  2
OLCU
 70
     0
 62
   150
  6
Continuous
370
    -3
390
F
  0
LAYER
  5
78
330
2
100
AcDbSymbolTableRecord
100
AcDbLayerTableRecord
  2
METIN
 70
     0
 62
    96
  6
Continuous
370
    -3
390
F
  0
LAYER
  5
79
330
2
100
AcDbSymbolTableRecord
100
AcDbLayerTableRecord
  2
BALON
 70
     0
 62
     5
  6
Continuous
370
    -3
390
F
  0
LAYER
  5
7A
330
2
100
AcDbSymbolTableRecord
100
AcDbLayerTableRecord
  2
VURGU
 70
     0
 62
     7
  6
Continuous
370
    -3
390
F
  0
LAYER
  5
7B
330
2
100
AcDbSymbolTableRecord
100
AcDbLayerTableRecord
  2
SILIK
 70
     0
 62
     7
  6
Continuous
370
    -3
390
F
  0
LAYER
  5
7C
330
2
100
AcDbSymbolTableRecord
100
AcDbLayerTableRecord
  2
MODEL
 70
     0
 62
     7
  6
Continuous
370
    -3
390
F
  0
LAYER
  5
7D
330
2
100
AcDbSymbolTableRecord
100
AcDbLayerTableRecord
  2
DETAYLANDıRMA
 70
     0
 62
   190
  6
Continuous
370
    -3
390
F
  0
LAYER
  5
7E
330
2
100
AcDbSymbolTableRecord
100
AcDbLayerTableRecord
  2
TOLERANS
 70
     0
 62
   230
  6
Continuous
370
    -3
390
F
  0
LAYER
  5
7F
330
2
100
AcDbSymbolTableRecord
100
AcDbLayerTableRecord
  2
MERKEZ_CIZGILERI
 70
     0
 62
    30
  6
Continuous
370
    -3
390
F
  0
LAYER
  5
80
330
2
100
AcDbSymbolTableRecord
100
AcDbLayerTableRecord
  2
KESIT-DETAY_CIZGILERI
 70
     0
 62
     7
  6
Continuous
370
    -3
390
F
  0
LAYER
  5
81
330
2
100
AcDbSymbolTableRecord
100
AcDbLayerTableRecord
  2
\U+041E\U+0421\U+0415\U+0412\U+042B\U+0415
 70
     0
 62
     7
  6
Continuous
370
    -3
390
F
  0
LAYER
  5
82
330
2
100
AcDbSymbolTableRecord
100
AcDbLayerTableRecord
  2
\U+0412\U+041E\U+0414\U+042F\U+041D\U+042B\U+0415_\U+0417\U+041D\U+0410\U+041A\U+0418
 70
     0
 62
    11
  6
Continuous
370
    -3
390
F
  0
ENDTAB
  0
TABLE
  2
STYLE
  5
3
330
0
100
AcDbSymbolTable
 70
     1
  0
STYLE
  5
11
330
3
100
AcDbSymbolTableRecord
100
AcDbTextStyleTableRecord
  2
Standard
 70
     0
 40
0.0
 41
1.0
 50
0.0
 71
     0
 42
3.5
  3
txt
  4

  0
ENDTAB
  0
TABLE
  2
VIEW
  5
6
330
0
100
AcDbSymbolTable
 70
     0
  0
ENDTAB
  0
TABLE
  2
UCS
  5
7
330
0
100
AcDbSymbolTable
 70
     0
  0
ENDTAB
  0
TABLE
  2
APPID
  5
9
330
0
100
AcDbSymbolTable
 70
     1
  0
APPID
  5
12
330
9
100
AcDbSymbolTableRecord
100
AcDbRegAppTableRecord
  2
ACAD
 70
     0
  0
ENDTAB
  0
TABLE
  2
DIMSTYLE
  5
A
330
0
100
AcDbSymbolTable
 70
     1
100
AcDbDimStyleTable
  0
DIMSTYLE
105
27
330
A
100
AcDbSymbolTableRecord
100
AcDbDimStyleTableRecord
  2
ISO-25
 70
     0
 41
2.5
 42
0.625
 43
3.75
 44
1.25
 73
     0
 74
     0
 77
     1
 78
     8
140
2.5
141
2.5
143
0.0393700787
147
0.625
171
     3
172
     1
178
     0
271
     2
272
     2
274
     3
278
    44
283
     0
284
     8
340
11
  0
ENDTAB
  0
TABLE
  2
BLOCK_RECORD
  5
1
330
0
100
AcDbSymbolTable
 70
     2
  0
BLOCK_RECORD
  5
1F
330
1
100
AcDbSymbolTableRecord
100
AcDbBlockTableRecord
  2
*Model_Space
340
22
  0
BLOCK_RECORD
  5
1B
330
1
100
AcDbSymbolTableRecord
100
AcDbBlockTableRecord
  2
*Paper_Space
340
1E
  0
BLOCK_RECORD
  5
23
330
1
100
AcDbSymbolTableRecord
100
AcDbBlockTableRecord
  2
*Paper_Space0
340
26
  0
BLOCK_RECORD
  5
88
330
1
100
AcDbSymbolTableRecord
100
AcDbBlockTableRecord
  2
SW_CENTERMARKSYMBOL_0
340
0
102
{BLKREFS
331
93
102
}
  0
ENDTAB
  0
ENDSEC
  0
SECTION
  2
BLOCKS
  0
BLOCK
  5
20
330
1F
100
AcDbEntity
  8
0
100
AcDbBlockBegin
  2
*Model_Space
 70
     0
 10
0.0
 20
0.0
 30
0.0
  3
*Model_Space
  1

  0
ENDBLK
  5
21
330
1F
100
AcDbEntity
  8
0
100
AcDbBlockEnd
  0
BLOCK
  5
1C
330
1B
100
AcDbEntity
 67
     1
  8
0
100
AcDbBlockBegin
  2
*Paper_Space
 70
     0
 10
0.0
 20
0.0
 30
0.0
  3
*Paper_Space
  1

  0
ENDBLK
  5
1D
330
1B
100
AcDbEntity
 67
     1
  8
0
100
AcDbBlockEnd
  0
BLOCK
  5
24
330
23
100
AcDbEntity
  8
0
100
AcDbBlockBegin
  2
*Paper_Space0
 70
     0
 10
0.0
 20
0.0
 30
0.0
  3
*Paper_Space0
  1

  0
ENDBLK
  5
25
330
23
100
AcDbEntity
  8
0
100
AcDbBlockEnd
  0
BLOCK
  5
89
330
88
100
AcDbEntity
  8
0
100
AcDbBlockBegin
  2
SW_CENTERMARKSYMBOL_0
 70
     0
 10
0.0
 20
0.0
 30
0.0
  3
SW_CENTERMARKSYMBOL_0
  1

  0
LINE
  5
8B
330
88
100
AcDbEntity
  8
FORMAT
 62
     0
100
AcDbLine
 10
0.0
 20
0.0
 30
0.0
 11
0.0
 21
2.5
 31
0.0
  0
LINE
  5
8C
330
88
100
AcDbEntity
  8
FORMAT
 62
     0
100
AcDbLine
 10
0.0
 20
0.0
 30
0.0
 11
-2.5
 21
0.0
 31
0.0
  0
LINE
  5
8D
330
88
100
AcDbEntity
  8
FORMAT
 62
     0
100
AcDbLine
 10
0.0
 20
0.0
 30
0.0
 11
0.0
 21
-2.5
 31
0.0
  0
LINE
  5
8E
330
88
100
AcDbEntity
  8
FORMAT
 62
     0
100
AcDbLine
 10
0.0
 20
0.0
 30
0.0
 11
2.5
 21
0.0
 31
0.0
  0
LINE
  5
8F
330
88
100
AcDbEntity
  8
FORMAT
 62
     0
100
AcDbLine
 10
0.0
 20
5.0
 30
0.0
 11
0.0
 21
127.5
 31
0.0
  0
LINE
  5
90
330
88
100
AcDbEntity
  8
FORMAT
 62
     0
100
AcDbLine
 10
-5.0
 20
0.0
 30
0.0
 11
-127.5
 21
0.0
 31
0.0
  0
LINE
  5
91
330
88
100
AcDbEntity
  8
FORMAT
 62
     0
100
AcDbLine
 10
0.0
 20
-5.0
 30
0.0
 11
0.0
 21
-127.5
 31
0.0
  0
LINE
  5
92
330
88
100
AcDbEntity
  8
FORMAT
 62
     0
100
AcDbLine
 10
5.0
 20
0.0
 30
0.0
 11
127.5
 21
0.0
 31
0.0
  0
ENDBLK
  5
8A
330
88
100
AcDbEntity
  8
0
100
AcDbBlockEnd
  0
ENDSEC
  0
SECTION
  2
ENTITIES
  0
CIRCLE
  5
83
330
1F
100
AcDbEntity
  8
0
  6
Continuous
 62
     7
370
    25
100
AcDbCircle
 10
139.395004093
 20
107.5851680021
 30
0.0
 40
125.0
  0
CIRCLE
  5
84
330
1F
100
AcDbEntity
  8
0
  6
Continuous
 62
     7
370
    25
100
AcDbCircle
 10
139.395004093
 20
107.5851680021
 30
0.0
 40
102.3
  0
CIRCLE
  5
85
330
1F
100
AcDbEntity
  8
0
  6
Continuous
 62
     7
370
    25
100
AcDbCircle
 10
139.395004093
 20
107.5851680021
 30
0.0
 40
101.7846975337651
  0
CIRCLE
  5
86
330
1F
100
AcDbEntity
  8
0
  6
Continuous
 62
     7
370
    25
100
AcDbCircle
 10
139.395004093
 20
107.5851680021
 30
0.0
 40
74.11530246623497
  0
CIRCLE
  5
87
330
1F
100
AcDbEntity
  8
0
  6
Continuous
 62
     7
370
    25
100
AcDbCircle
 10
139.395004093
 20
107.5851680021
 30
0.0
 40
73.60000000000002
  0
INSERT
  5
93
330
1F
100
AcDbEntity
  8
FORMAT
 62
     7
100
AcDbBlockReference
  2
SW_CENTERMARKSYMBOL_0
 10
139.395004093
 20
107.5851680021
 30
0.0
  0
LINE
  5
94
330
1F
100
AcDbEntity
  8
0
  6
Continuous
 62
     7
370
    25
100
AcDbLine
 10
-287.170156698
 20
232.5851680021
 30
0.0
 11
-415.7039745257
 21
232.5851680021
 31
0.0
  0
LINE
  5
95
330
1F
100
AcDbEntity
  8
0
  6
Continuous
 62
     7
370
    25
100
AcDbLine
 10
-415.7039745257
 20
-17.4148319979
 30
0.0
 11
-287.170156698
 21
-17.4148319979
 31
0.0
  0
ARC
  5
96
330
1F
100
AcDbEntity
  8
0
  6
Continuous
 62
     7
370
    25
100
AcDbCircle
 10
-287.1701571951
 20
230.5851680021
 30
0.0
 40
2.000000000000008
100
AcDbArc
 50
63.7586503478
 51
90.0
  0
ARC
  5
97
330
1F
100
AcDbEntity
  8
0
  6
Continuous
 62
     7
370
    25
100
AcDbCircle
 10
-287.1701571951
 20
-15.4148319979
 30
0.0
 40
2.000000000000008
100
AcDbArc
 50
270.0
 51
296.2413496522
  0
LINE
  5
98
330
1F
100
AcDbEntity
  8
0
  6
Continuous
 62
     7
370
    25
100
AcDbLine
 10
-286.2858510122
 20
-17.2087116857
 30
0.0
 11
-216.1221130297
 21
17.3790441136
 31
0.0
  0
LINE
  5
99
330
1F
100
AcDbEntity
  8
0
  6
Continuous
 62
     7
370
    25
100
AcDbLine
 10
-216.1221130297
 20
197.7912918906
 30
0.0
 11
-286.2858510122
 21
232.3790476899
 31
0.0
  0
ARC
  5
9A
330
1F
100
AcDbEntity
  8
0
  6
Continuous
 62
     7
370
    25
100
AcDbCircle
 10
-215.2378063712
 20
199.5851680021
 30
0.0
 40
2.0
100
AcDbArc
 50
243.7586503478
 51
270.0
  0
ARC
  5
9B
330
1F
100
AcDbEntity
  8
0
  6
Continuous
 62
     7
370
    25
100
AcDbCircle
 10
-215.2378063712
 20
15.5851680021
 30
0.0
 40
2.000000000000004
100
AcDbArc
 50
90.0
 51
116.2413496522
  0
LINE
  5
9C
330
1F
100
AcDbEntity
  8
0
  6
Continuous
 62
     7
370
    25
100
AcDbLine
 10
-110.7039822743
 20
197.5851715784
 30
0.0
 11
-215.2378073439
 21
197.5851715784
 31
0.0
  0
LINE
  5
9D
330
1F
100
AcDbEntity
  8
0
  6
Continuous
 62
     7
370
    25
100
AcDbLine
 10
-215.2378073439
 20
17.5851644258
 30
0.0
 11
-110.7039822743
 21
17.5851644258
 31
0.0
  0
LINE
  5
9E
330
1F
100
AcDbEntity
  8
0
  6
Continuous
 62
     7
370
    25
100
AcDbLine
 10
-415.7039745257
 20
232.5851680021
 30
0.0
 11
-415.7039745257
 21
-17.4148319979
 31
0.0
  0
LINE
  5
9F
330
1F
100
AcDbEntity
  8
0
  6
Continuous
 62
     7
370
    25
100
AcDbLine
 10
-110.7039822743
 20
197.5851715784
 30
0.0
 11
-110.7039822743
 21
17.5851644258
 31
0.0
  0
LINE
  5
A0
330
1F
100
AcDbEntity
  8
0
  6
Continuous
 62
     1
370
    25
100
AcDbLine
 10
-287.170156698
 20
232.5851680021
 30
0.0
 11
-287.170156698
 21
-17.4148319979
 31
0.0
  0
LINE
  5
A1
330
1F
100
AcDbEntity
  8
0
  6
Continuous
 62
     1
370
    25
100
AcDbLine
 10
-286.2858510122
 20
232.3790476899
 30
0.0
 11
-286.2858510122
 21
-17.2087116857
 31
0.0
  0
LINE
  5
A2
330
1F
100
AcDbEntity
  8
0
  6
Continuous
 62
     1
370
    25
100
AcDbLine
 10
-216.1221130297
 20
197.7912918906
 30
0.0
 11
-216.1221130297
 21
17.3790441136
 31
0.0
  0
LINE
  5
A3
330
1F
100
AcDbEntity
  8
0
  6
Continuous
 62
     1
370
    25
100
AcDbLine
 10
-215.2378073439
 20
197.5851715784
 30
0.0
 11
-215.2378073439
 21
17.5851644258
 31
0.0
  0
LINE
  5
A4
330
1F
100
AcDbEntity
  8
0
  6
Continuous
 62
     7
370
    25
100
AcDbLine
 10
533.9653441309
 20
-17.4148319979
 30
0.0
 11
662.4991619586
 21
-17.4148319979
 31
0.0
  0
LINE
  5
A5
330
1F
100
AcDbEntity
  8
0
  6
Continuous
 62
     7
370
    25
100
AcDbLine
 10
662.4991619586
 20
232.5851680021
 30
0.0
 11
533.9653441309
 21
232.5851680021
 31
0.0
  0
ARC
  5
A6
330
1F
100
AcDbEntity
  8
0
  6
Continuous
 62
     7
370
    25
100
AcDbCircle
 10
533.965344628
 20
-15.4148319979
 30
0.0
 40
2.000000000000008
100
AcDbArc
 50
243.7586503478
 51
270.0
  0
ARC
  5
A7
330
1F
100
AcDbEntity
  8
0
  6
Continuous
 62
     7
370
    25
100
AcDbCircle
 10
533.965344628
 20
230.5851680021
 30
0.0
 40
2.000000000000008
100
AcDbArc
 50
90.0
 51
116.2413496522
  0
LINE
  5
A8
330
1F
100
AcDbEntity
  8
0
  6
Continuous
 62
     7
370
    25
100
AcDbLine
 10
533.0810384451
 20
232.3790476899
 30
0.0
 11
462.9173004626
 21
197.7912918906
 31
0.0
  0
LINE
  5
A9
330
1F
100
AcDbEntity
  8
0
  6
Continuous
 62
     7
370
    25
100
AcDbLine
 10
462.9173004626
 20
17.3790441136
 30
0.0
 11
533.0810384451
 21
-17.2087116857
 31
0.0
  0
ARC
  5
AA
330
1F
100
AcDbEntity
  8
0
  6
Continuous
 62
     7
370
    25
100
AcDbCircle
 10
462.0329938041
 20
15.5851680021
 30
0.0
 40
2.000000000000008
100
AcDbArc
 50
63.7586503478
 51
90.0
  0
ARC
  5
AB
330
1F
100
AcDbEntity
  8
0
  6
Continuous
 62
     7
370
    25
100
AcDbCircle
 10
462.0329938041
 20
199.5851680021
 30
0.0
 40
2.000000000000008
100
AcDbArc
 50
270.0
 51
296.2413496522
  0
LINE
  5
AC
330
1F
100
AcDbEntity
  8
0
  6
Continuous
 62
     7
370
    25
100
AcDbLine
 10
357.4991697072
 20
17.5851644258
 30
0.0
 11
462.0329947769
 21
17.5851644258
 31
0.0
  0
LINE
  5
AD
330
1F
100
AcDbEntity
  8
0
  6
Continuous
 62
     7
370
    25
100
AcDbLine
 10
462.0329947769
 20
197.5851715784
 30
0.0
 11
357.4991697072
 21
197.5851715784
 31
0.0
  0
LINE
  5
AE
330
1F
100
AcDbEntity
  8
0
  6
Continuous
 62
     7
370
    25
100
AcDbLine
 10
662.4991619586
 20
107.5851680021
 30
0.0
 11
662.4991619586
 21
232.5851680021
 31
0.0
  0
LINE
  5
AF
330
1F
100
AcDbEntity
  8
0
  6
Continuous
 62
     7
370
    25
100
AcDbLine
 10
662.4991619586
 20
-17.4148319979
 30
0.0
 11
662.4991619586
 21
107.5851680021
 31
0.0
  0
LINE
  5
B0
330
1F
100
AcDbEntity
  8
0
  6
Continuous
 62
     7
370
    25
100
AcDbLine
 10
357.4991697072
 20
107.5851680021
 30
0.0
 11
357.4991697072
 21
197.5851715784
 31
0.0
  0
LINE
  5
B1
330
1F
100
AcDbEntity
  8
0
  6
Continuous
 62
     7
370
    25
100
AcDbLine
 10
357.4991697072
 20
17.5851644258
 30
0.0
 11
357.4991697072
 21
107.5851680021
 31
0.0
  0
LINE
  5
B2
330
1F
100
AcDbEntity
  8
0
  6
Continuous
 62
     1
370
    25
100
AcDbLine
 10
533.9653441309
 20
107.5851680021
 30
0.0
 11
533.9653441309
 21
232.5851680021
 31
0.0
  0
LINE
  5
B3
330
1F
100
AcDbEntity
  8
0
  6
Continuous
 62
     1
370
    25
100
AcDbLine
 10
533.9653441309
 20
-17.4148319979
 30
0.0
 11
533.9653441309
 21
107.5851680021
 31
0.0
  0
LINE
  5
B4
330
1F
100
AcDbEntity
  8
0
  6
Continuous
 62
     1
370
    25
100
AcDbLine
 10
533.0810384451
 20
107.5851680021
 30
0.0
 11
533.0810384451
 21
232.3790476899
 31
0.0
  0
LINE
  5
B5
330
1F
100
AcDbEntity
  8
0
  6
Continuous
 62
     1
370
    25
100
AcDbLine
 10
533.0810384451
 20
-17.2087116857
 30
0.0
 11
533.0810384451
 21
107.5851680021
 31
0.0
  0
LINE
  5
B6
330
1F
100
AcDbEntity
  8
0
  6
Continuous
 62
     1
370
    25
100
AcDbLine
 10
462.9173004626
 20
107.5851680021
 30
0.0
 11
462.9173004626
 21
197.7912918906
 31
0.0
  0
LINE
  5
B7
330
1F
100
AcDbEntity
  8
0
  6
Continuous
 62
     1
370
    25
100
AcDbLine
 10
462.9173004626
 20
17.3790441136
 30
0.0
 11
462.9173004626
 21
107.5851680021
 31
0.0
  0
LINE
  5
B8
330
1F
100
AcDbEntity
  8
0
  6
Continuous
 62
     1
370
    25
100
AcDbLine
 10
462.0329947769
 20
107.5851680021
 30
0.0
 11
462.0329947769
 21
197.5851715784
 31
0.0
  0
LINE
  5
B9
330
1F
100
AcDbEntity
  8
0
  6
Continuous
 62
     1
370
    25
100
AcDbLine
 10
462.0329947769
 20
17.5851644258
 30
0.0
 11
462.0329947769
 21
107.5851680021
 31
0.0
  0
LINE
  5
BA
330
1F
100
AcDbEntity
  8
0
  6
Continuous
 62
     7
370
    25
100
AcDbLine
 10
264.395004093
 20
499.1346964498
 30
0.0
 11
264.395004093
 21
627.6685142775
 31
0.0
  0
LINE
  5
BB
330
1F
100
AcDbEntity
  8
0
  6
Continuous
 62
     7
370
    25
100
AcDbLine
 10
14.395004093
 20
627.6685142775
 30
0.0
 11
14.395004093
 21
499.1346964498
 31
0.0
  0
ARC
  5
BC
330
1F
100
AcDbEntity
  8
0
  6
Continuous
 62
     7
370
    25
100
AcDbCircle
 10
262.395004093
 20
499.1346969469
 30
0.0
 40
2.000000000000008
100
AcDbArc
 50
333.7586503478
 51
0.0
  0
ARC
  5
BD
330
1F
100
AcDbEntity
  8
0
  6
Continuous
 62
     7
370
    25
100
AcDbCircle
 10
16.395004093
 20
499.1346969469
 30
0.0
 40
2.000000000000002
100
AcDbArc
 50
180.0
 51
206.2413496522
  0
LINE
  5
BE
330
1F
100
AcDbEntity
  8
0
  6
Continuous
 62
     7
370
    25
100
AcDbLine
 10
14.6011244053
 20
498.250390764
 30
0.0
 11
49.1888802046
 21
428.0866527815
 31
0.0
  0
LINE
  5
BF
330
1F
100
AcDbEntity
  8
0
  6
Continuous
 62
     7
370
    25
100
AcDbLine
 10
229.6011279815
 20
428.0866527815
 30
0.0
 11
264.1888837808
 21
498.250390764
 31
0.0
  0
ARC
  5
C0
330
1F
100
AcDbEntity
  8
0
  6
Continuous
 62
     7
370
    25
100
AcDbCircle
 10
231.395004093
 20
427.202346123
 30
0.0
 40
2.000000000000008
100
AcDbArc
 50
153.7586503478
 51
180.0
  0
ARC
  5
C1
330
1F
100
AcDbEntity
  8
0
  6
Continuous
 62
     7
370
    25
100
AcDbCircle
 10
47.395004093
 20
427.202346123
 30
0.0
 40
2.000000000000008
100
AcDbArc
 50
0.0
 51
26.2413496522
  0
LINE
  5
C2
330
1F
100
AcDbEntity
  8
0
  6
Continuous
 62
     7
370
    25
100
AcDbLine
 10
229.3950076693
 20
322.6685220261
 30
0.0
 11
229.3950076693
 21
427.2023470958
 31
0.0
  0
LINE
  5
C3
330
1F
100
AcDbEntity
  8
0
  6
Continuous
 62
     7
370
    25
100
AcDbLine
 10
49.3950005168
 20
427.2023470958
 30
0.0
 11
49.3950005168
 21
322.6685220261
 31
0.0
  0
LINE
  5
C4
330
1F
100
AcDbEntity
  8
0
  6
Continuous
 62
     7
370
    25
100
AcDbLine
 10
264.395004093
 20
627.6685142775
 30
0.0
 11
14.395004093
 21
627.6685142775
 31
0.0
  0
LINE
  5
C5
330
1F
100
AcDbEntity
  8
0
  6
Continuous
 62
     7
370
    25
100
AcDbLine
 10
229.3950076693
 20
322.6685220261
 30
0.0
 11
49.3950005168
 21
322.6685220261
 31
0.0
  0
LINE
  5
C6
330
1F
100
AcDbEntity
  8
0
  6
Continuous
 62
     1
370
    25
100
AcDbLine
 10
264.395004093
 20
499.1346964498
 30
0.0
 11
14.395004093
 21
499.1346964498
 31
0.0
  0
LINE
  5
C7
330
1F
100
AcDbEntity
  8
0
  6
Continuous
 62
     1
370
    25
100
AcDbLine
 10
264.1888837808
 20
498.250390764
 30
0.0
 11
14.6011244053
 21
498.250390764
 31
0.0
  0
LINE
  5
C8
330
1F
100
AcDbEntity
  8
0
  6
Continuous
 62
     1
370
    25
100
AcDbLine
 10
229.6011279815
 20
428.0866527815
 30
0.0
 11
49.1888802046
 21
428.0866527815
 31
0.0
  0
LINE
  5
C9
330
1F
100
AcDbEntity
  8
0
  6
Continuous
 62
     1
370
    25
100
AcDbLine
 10
229.3950076693
 20
427.2023470958
 30
0.0
 11
49.3950005168
 21
427.2023470958
 31
0.0
  0
LINE
  5
CA
330
1F
100
AcDbEntity
  8
0
  6
Continuous
 62
     7
370
    25
100
AcDbLine
 10
14.395004093
 20
-287.3225001371
 30
0.0
 11
14.395004093
 21
-415.8563179648
 31
0.0
  0
LINE
  5
CB
330
1F
100
AcDbEntity
  8
0
  6
Continuous
 62
     7
370
    25
100
AcDbLine
 10
264.395004093
 20
-415.8563179648
 30
0.0
 11
264.395004093
 21
-287.3225001371
 31
0.0
  0
ARC
  5
CC
330
1F
100
AcDbEntity
  8
0
  6
Continuous
 62
     7
370
    25
100
AcDbCircle
 10
16.395004093
 20
-287.3225006342
 30
0.0
 40
2.000000000000002
100
AcDbArc
 50
153.7586503478
 51
180.0
  0
ARC
  5
CD
330
1F
100
AcDbEntity
  8
0
  6
Continuous
 62
     7
370
    25
100
AcDbCircle
 10
262.395004093
 20
-287.3225006342
 30
0.0
 40
2.000000000000008
100
AcDbArc
 50
360.0
 51
26.2413496522
  0
LINE
  5
CE
330
1F
100
AcDbEntity
  8
0
  6
Continuous
 62
     7
370
    25
100
AcDbLine
 10
264.1888837808
 20
-286.4381944513
 30
0.0
 11
229.6011279815
 21
-216.2744564688
 31
0.0
  0
LINE
  5
CF
330
1F
100
AcDbEntity
  8
0
  6
Continuous
 62
     7
370
    25
100
AcDbLine
 10
49.1888802046
 20
-216.2744564688
 30
0.0
 11
14.6011244053
 21
-286.4381944513
 31
0.0
  0
ARC
  5
D0
330
1F
100
AcDbEntity
  8
0
  6
Continuous
 62
     7
370
    25
100
AcDbCircle
 10
47.395004093
 20
-215.3901498103
 30
0.0
 40
2.0
100
AcDbArc
 50
333.7586503478
 51
0.0
  0
ARC
  5
D1
330
1F
100
AcDbEntity
  8
0
  6
Continuous
 62
     7
370
    25
100
AcDbCircle
 10
231.395004093
 20
-215.3901498103
 30
0.0
 40
2.0
100
AcDbArc
 50
180.0
 51
206.2413496522
  0
LINE
  5
D2
330
1F
100
AcDbEntity
  8
0
  6
Continuous
 62
     7
370
    25
100
AcDbLine
 10
49.3950005168
 20
-110.8563257134
 30
0.0
 11
49.3950005168
 21
-215.3901507831
 31
0.0
  0
LINE
  5
D3
330
1F
100
AcDbEntity
  8
0
  6
Continuous
 62
     7
370
    25
100
AcDbLine
 10
229.3950076693
 20
-215.3901507831
 30
0.0
 11
229.3950076693
 21
-110.8563257134
 31
0.0
  0
LINE
  5
D4
330
1F
100
AcDbEntity
  8
0
  6
Continuous
 62
     7
370
    25
100
AcDbLine
 10
14.395004093
 20
-415.8563179648
 30
0.0
 11
264.395004093
 21
-415.8563179648
 31
0.0
  0
LINE
  5
D5
330
1F
100
AcDbEntity
  8
0
  6
Continuous
 62
     7
370
    25
100
AcDbLine
 10
49.3950005168
 20
-110.8563257134
 30
0.0
 11
229.3950076693
 21
-110.8563257134
 31
0.0
  0
LINE
  5
D6
330
1F
100
AcDbEntity
  8
0
  6
Continuous
 62
     1
370
    25
100
AcDbLine
 10
14.395004093
 20
-287.3225001371
 30
0.0
 11
264.395004093
 21
-287.3225001371
 31
0.0
  0
LINE
  5
D7
330
1F
100
AcDbEntity
  8
0
  6
Continuous
 62
     1
370
    25
100
AcDbLine
 10
14.6011244053
 20
-286.4381944513
 30
0.0
 11
264.1888837808
 21
-286.4381944513
 31
0.0
  0
LINE
  5
D8
330
1F
100
AcDbEntity
  8
0
  6
Continuous
 62
     1
370
    25
100
AcDbLine
 10
49.1888802046
 20
-216.2744564688
 30
0.0
 11
229.6011279815
 21
-216.2744564688
 31
0.0
  0
LINE
  5
D9
330
1F
100
AcDbEntity
  8
0
  6
Continuous
 62
     1
370
    25
100
AcDbLine
 10
49.3950005168
 20
-215.3901507831
 30
0.0
 11
229.3950076693
 21
-215.3901507831
 31
0.0
  0
LINE
  5
DA
330
1F
100
AcDbEntity
  8
0
  6
Continuous
 62
     7
370
    25
100
AcDbLine
 10
564.5276834676
 20
-125.6812991125
 30
0.0
 11
473.6405492699
 21
-73.2132733535
 31
0.0
  0
LINE
  5
DB
330
1F
100
AcDbEntity
  8
0
  6
Continuous
 62
     7
370
    25
100
AcDbLine
 10
348.6507087997
 20
-289.7254856017
 30
0.0
 11
439.5378429974
 21
-342.1935113608
 31
0.0
  0
SPLINE
  5
DC
330
1F
100
AcDbEntity
  8
0
  6
Continuous
 62
     7
370
    25
100
AcDbSpline
210
0.0
220
0.0
230
1.0
 70
     8
 71
     3
 72
    11
 73
     7
 74
     0
 42
0.000000001
 43
0.00000001
 40
0.0
 40
0.0
 40
0.0
 40
0.0
 40
0.3136437850030871
 40
0.6544763445439173
 40
0.9946046746980851
 40
1.0
 40
1.0
 40
1.0
 40
1.0
 10
578.1875363390275
 20
-137.9940644224939
 30
0.0
 10
577.4961189225822
 20
-137.091926448377
 30
0.0
 10
576.0533473297556
 20
-135.2094470503922
 30
0.0
 10
573.6241713779242
 20
-132.6510872018638
 30
0.0
 10
571.8935113959278
 20
-130.9550915911084
 30
0.0
 10
570.9467608778167
 20
-130.2132088479964
 30
0.0
 10
570.9319774413013
 20
-130.2016244060291
 30
0.0
  0
SPLINE
  5
DD
330
1F
100
AcDbEntity
  8
0
  6
Continuous
 62
     7
370
    25
100
AcDbSpline
210
0.0
220
0.0
230
1.0
 70
     8
 71
     3
 72
    10
 73
     6
 74
     0
 42
0.000000001
 43
0.00000001
 40
0.0
 40
0.0
 40
0.0
 40
0.0
 40
0.3350467158749112
 40
0.7295991693153999
 40
0.9999999999999999
 40
0.9999999999999999
 40
0.9999999999999999
 40
0.9999999999999999
 10
446.8411226643689
 20
-345.5281113343636
 30
0.0
 10
447.7973503744614
 20
-345.8499861560511
 30
0.0
 10
449.8796359480957
 20
-346.5509021519402
 30
0.0
 10
452.8497435337401
 20
-347.2601224067437
 30
0.0
 10
454.8938157870483
 20
-347.5562270679748
 30
0.0
 10
455.7250303226695
 20
-347.6766369498085
 30
0.0
  0
LINE
  5
DE
330
1F
100
AcDbEntity
  8
0
  6
Continuous
 62
     7
370
    25
100
AcDbLine
 10
465.933455379
 20
-348.154374357
 30
0.0
 11
525.7252690456
 21
-345.2392738371
 31
0.0
  0
LINE
  5
DF
330
1F
100
AcDbEntity
  8
0
  6
Continuous
 62
     7
370
    25
100
AcDbLine
 10
610.2659597706
 20
-198.7946272009
 30
0.0
 11
582.8896086634
 21
-145.5584191205
 31
0.0
  0
LINE
  5
E0
330
1F
100
AcDbEntity
  8
0
  6
Continuous
 62
     7
370
    25
100
AcDbLine
 10
671.8095360727
 20
-228.0272150116
 30
0.0
 11
605.6615061328
 21
-189.8407701486
 31
0.0
  0
LINE
  5
E1
330
1F
100
AcDbEntity
  8
0
  6
Continuous
 62
     7
370
    25
100
AcDbLine
 10
515.6688176225
 20
-345.7295668606
 30
0.0
 11
581.8168475624
 21
-383.9160117236
 31
0.0
  0
LWPOLYLINE
  5
E2
330
1F
100
AcDbEntity
  8
0
  6
Continuous
 62
     7
370
    25
100
AcDbPolyline
 90
      125
 70
   128
 43
0.0
 10
322.7572813864
 20
-232.4948864665
 10
322.8707248976
 20
-227.2597576395
 10
323.2107709397
 20
-221.9070847937
 10
323.7765449658
 20
-216.4506082708
 10
324.5665981778
 20
-210.9043329998
 10
325.5788917221
 20
-205.2825037801
 10
326.8108388357
 20
-199.5995402663
 10
328.2592679683
 20
-193.8700445695
 10
329.9204649289
 20
-188.1087115258
 10
331.7901676175
 20
-182.3303363015
 10
333.8635765617
 20
-176.5497505144
 10
336.1353654534
 20
-170.7817979003
 10
338.5997022225
 20
-165.0412765199
 10
341.2502701102
 20
-159.3429235512
 10
344.0802518636
 20
-153.7013696607
 10
347.0823929564
 20
-148.1310964229
 10
350.2489805155
 20
-142.6464059002
 10
353.5718907356
 20
-137.2613689355
 10
357.0425941484
 20
-131.9898160277
 10
360.6521766955
 20
-126.8452704122
 10
364.3913766067
 20
-121.8409511071
 10
368.2505896691
 20
-116.9896968665
 10
372.2199166416
 20
-112.3039570601
 10
376.2891658894
 20
-107.7957658172
 10
380.4478928965
 20
-103.476694882
 10
384.6854160711
 20
-99.3578323222
 10
388.9908667947
 20
-95.4497414683
 10
393.3531854707
 20
-91.762469279
 10
397.7611781595
 20
-88.305464976
 10
402.2035284325
 20
-85.0876157878
 10
406.6688326035
 20
-82.1171779407
 10
411.1456290348
 20
-79.4017779919
 10
415.622425466
 20
-76.9483788021
 10
420.0877296371
 20
-74.763286192
 10
424.53007991
 20
-72.8521069294
 10
428.9380725989
 20
-71.2197512039
 10
433.3003912749
 20
-69.8703974576
 10
437.6058419984
 20
-68.807520716
 10
441.843365173
 20
-68.0338431591
 10
446.0020921802
 20
-67.5513500959
 10
450.0713414279
 20
-67.3612861626
 10
454.0406684004
 20
-67.4641385961
 10
457.8998814628
 20
-67.8596402782
 10
461.6390813741
 20
-68.5467712597
 10
465.2486639211
 20
-69.5237815748
 10
468.7193673339
 20
-70.7881456176
 10
472.0422775541
 20
-72.3366321054
 10
475.2088651131
 20
-74.165258454
 10
478.211006206
 20
-76.2693333661
 10
481.0409879594
 20
-78.6434598733
 10
483.691555847
 20
-81.2815322988
 10
486.1558926161
 20
-84.1767910086
 10
488.4276815079
 20
-87.3217919994
 10
490.501090452
 20
-90.7084707754
 10
492.3707931406
 20
-94.328133225
 10
494.0319901012
 20
-98.1714890832
 10
495.4804192339
 20
-102.2286640999
 10
496.7123663475
 20
-106.4892517523
 10
497.7246598917
 20
-110.9423117238
 10
498.5147131038
 20
-115.5764109724
 10
499.0804871298
 20
-120.3796587092
 10
499.420533172
 20
-125.3397227516
 10
499.5339766831
 20
-130.4438724887
 10
499.420533172
 20
-135.6790013157
 10
499.0804871298
 20
-141.0316741615
 10
498.5147131038
 20
-146.4881506844
 10
497.7246598917
 20
-152.0344259555
 10
496.7123663475
 20
-157.6562551752
 10
495.4804192339
 20
-163.3392186889
 10
494.0319901012
 20
-169.0687143858
 10
492.3707931406
 20
-174.8300474294
 10
490.501090452
 20
-180.6084226537
 10
488.4276815079
 20
-186.3890084409
 10
486.1558926161
 20
-192.1569610549
 10
483.691555847
 20
-197.8974824354
 10
481.0409879594
 20
-203.595835404
 10
478.211006206
 20
-209.2373892945
 10
475.2088651131
 20
-214.8076625323
 10
472.0422775541
 20
-220.2923530551
 10
468.7193673339
 20
-225.6773900197
 10
465.2486639211
 20
-230.9489429276
 10
461.6390813741
 20
-236.093488543
 10
457.8998814628
 20
-241.0978078481
 10
454.0406684004
 20
-245.9490620887
 10
450.0713414279
 20
-250.6348018952
 10
446.0020921802
 20
-255.1429931381
 10
441.843365173
 20
-259.4620640733
 10
437.6058419984
 20
-263.5809266331
 10
433.3003912749
 20
-267.4890174869
 10
428.9380725989
 20
-271.1762896763
 10
424.53007991
 20
-274.6332939793
 10
420.0877296371
 20
-277.8511431674
 10
415.622425466
 20
-280.8215810146
 10
411.1456290348
 20
-283.5369809633
 10
406.6688326035
 20
-285.9903801531
 10
402.2035284325
 20
-288.1754727633
 10
397.7611781595
 20
-290.0866520258
 10
393.3531854707
 20
-291.7190077514
 10
388.9908667947
 20
-293.0683614977
 10
384.6854160711
 20
-294.1312382392
 10
380.4478928965
 20
-294.9049157962
 10
376.2891658894
 20
-295.3874088593
 10
372.2199166416
 20
-295.5774727927
 10
368.2505896691
 20
-295.4746203591
 10
364.3913766067
 20
-295.079118677
 10
360.6521766955
 20
-294.3919876955
 10
357.0425941484
 20
-293.4149773804
 10
353.5718907356
 20
-292.1506133376
 10
350.2489805155
 20
-290.6021268499
 10
347.0823929564
 20
-288.7735005012
 10
344.0802518636
 20
-286.6694255891
 10
341.2502701102
 20
-284.295299082
 10
338.5997022225
 20
-281.6572266565
 10
336.1353654534
 20
-278.7619679466
 10
333.8635765617
 20
-275.6169669558
 10
331.7901676175
 20
-272.2302881798
 10
329.9204649289
 20
-268.6106257302
 10
328.2592679683
 20
-264.7672698721
 10
326.8108388357
 20
-260.7100948554
 10
325.5788917221
 20
-256.4495072029
 10
324.5665981778
 20
-251.9964472315
 10
323.7765449658
 20
-247.3623479828
 10
323.2107709397
 20
-242.5591002461
 10
322.8707248976
 20
-237.5990362036
 10
322.7572813864
 20
-232.4948864665
  0
LWPOLYLINE
  5
E3
330
1F
100
AcDbEntity
  8
0
  6
Continuous
 62
     7
370
    25
100
AcDbPolyline
 90
      113
 70
   128
 43
0.0
 10
338.8086030772
 20
-223.2286556918
 10
338.9224048365
 20
-218.4792756119
 10
339.2634465979
 20
-213.6134496816
 10
339.8306536168
 20
-208.646487819
 10
340.6222451889
 20
-203.5940162289
 10
341.6357293816
 20
-198.4719313935
 10
342.8679188396
 20
-193.2963502645
 10
344.3149307844
 20
-188.0835585507
 10
345.9722238932
 20
-182.8499559687
 10
347.8345719567
 20
-177.6120075707
 10
349.8961218314
 20
-172.3861966011
 10
352.1503829025
 20
-167.1889667003
 10
354.5902639628
 20
-162.036670197
 10
357.2080942858
 20
-156.9455103148
 10
359.9956288944
 20
-151.9315137958
 10
362.9441012441
 20
-147.0104548597
 10
366.0442337597
 20
-142.1978126186
 10
369.2862694459
 20
-137.5087406614
 10
372.6600113996
 20
-132.9579834068
 10
376.1548438832
 20
-128.559857854
 10
379.7597718376
 20
-124.3282064377
 10
383.4634472239
 20
-120.2763392356
 10
387.254224341
 20
-116.4170142013
 10
391.1201716796
 20
-112.7623634008
 10
395.0491272395
 20
-109.3238914962
 10
399.0287275063
 20
-106.1124164331
 10
403.0464522318
 20
-103.1380435885
 10
407.0896596663
 20
-100.4101271808
 10
411.1456290348
 20
-97.9372518325
 10
415.2015984033
 20
-95.7272046268
 10
419.2448058377
 20
-93.7869330958
 10
423.2625305632
 20
-92.1225397113
 10
427.24213083
 20
-90.7392661083
 10
431.17108639
 20
-89.6414624807
 10
435.0370337285
 20
-88.832585493
 10
438.8278108456
 20
-88.3151724294
 10
442.5314862319
 20
-88.0908670513
 10
446.1364141864
 20
-88.1603572455
 10
449.63124667
 20
-88.5234351011
 10
453.0049886236
 20
-89.1789528086
 10
456.2470243098
 20
-90.1248500382
 10
459.3471568255
 20
-91.3581554651
 10
462.2956291751
 20
-92.8749806874
 10
465.0831637837
 20
-94.6705582533
 10
467.7009941068
 20
-96.7392355799
 10
470.1408751671
 20
-99.074505373
 10
472.3951362382
 20
-101.6690208414
 10
474.4566861128
 20
-104.5146169901
 10
476.3190341763
 20
-107.6023440828
 10
477.9763272851
 20
-110.9224767707
 10
479.42333923
 20
-114.4645840545
 10
480.6555286879
 20
-118.2175095174
 10
481.6690128807
 20
-122.169450411
 10
482.4606044527
 20
-126.3079698261
 10
483.0278114716
 20
-130.6200484043
 10
483.368853233
 20
-135.0921158982
 10
483.4826549924
 20
-139.7101032635
 10
483.368853233
 20
-144.4594833433
 10
483.0278114716
 20
-149.3253092736
 10
482.4606044527
 20
-154.2922711362
 10
481.6690128807
 20
-159.3447427264
 10
480.6555286879
 20
-164.4668275617
 10
479.42333923
 20
-169.6424086907
 10
477.9763272851
 20
-174.8552004045
 10
476.3190341763
 20
-180.0888029865
 10
474.4566861128
 20
-185.3267513845
 10
472.3951362382
 20
-190.5525623542
 10
470.1408751671
 20
-195.749792255
 10
467.7009941068
 20
-200.9020887582
 10
465.0831637837
 20
-205.9932486405
 10
462.2956291751
 20
-211.0072451594
 10
459.3471568255
 20
-215.9283040955
 10
456.2470243098
 20
-220.7409463367
 10
453.0049886236
 20
-225.4300182938
 10
449.63124667
 20
-229.9807755485
 10
446.1364141864
 20
-234.3789011013
 10
442.5314862319
 20
-238.6105525176
 10
438.8278108456
 20
-242.6624197196
 10
435.0370337285
 20
-246.5217447539
 10
431.17108639
 20
-250.1763955545
 10
427.24213083
 20
-253.614867459
 10
423.2625305632
 20
-256.8263425221
 10
419.2448058377
 20
-259.8007153667
 10
415.2015984033
 20
-262.5286317744
 10
411.1456290348
 20
-265.0015071228
 10
407.0896596663
 20
-267.2115543285
 10
403.0464522318
 20
-269.1518258594
 10
399.0287275063
 20
-270.8162192439
 10
395.0491272395
 20
-272.1994928469
 10
391.1201716796
 20
-273.2972964746
 10
387.254224341
 20
-274.1061734622
 10
383.4634472239
 20
-274.6235865259
 10
379.7597718376
 20
-274.847891904
 10
376.1548438832
 20
-274.7784017098
 10
372.6600113996
 20
-274.4153238541
 10
369.2862694459
 20
-273.7598061467
 10
366.0442337597
 20
-272.8139089171
 10
362.9441012441
 20
-271.5806034902
 10
359.9956288944
 20
-270.0637782678
 10
357.2080942858
 20
-268.268200702
 10
354.5902639628
 20
-266.1995233754
 10
352.1503829025
 20
-263.8642535822
 10
349.8961218314
 20
-261.2697381138
 10
347.8345719567
 20
-258.4241419651
 10
345.9722238932
 20
-255.3364148725
 10
344.3149307844
 20
-252.0162821846
 10
342.8679188396
 20
-248.4741749008
 10
341.6357293816
 20
-244.7212494379
 10
340.6222451889
 20
-240.7693085442
 10
339.8306536168
 20
-236.6307891291
 10
339.2634465979
 20
-232.318710551
 10
338.9224048365
 20
-227.846643057
 10
338.8086030772
 20
-223.2286556918
  0
ARC
  5
E4
330
1F
100
AcDbEntity
  8
0
  6
Continuous
 62
     7
370
    25
100
AcDbCircle
 10
543.4765702341
 20
-162.1146359891
 30
0.0
 40
42.07775426913503
100
AcDbArc
 50
49.6187155952
 51
59.9807591373
  0
ARC
  5
E5
330
1F
100
AcDbEntity
  8
0
  6
Continuous
 62
     7
370
    25
100
AcDbCircle
 10
460.5672860408
 20
-305.7321103283
 30
0.0
 40
42.09122521339773
100
AcDbArc
 50
240.0254122511
 51
250.6356796964
  0
ARC
  5
E6
330
1F
100
AcDbEntity
  8
0
  6
Continuous
 62
     7
370
    25
100
AcDbCircle
 10
526.9455709847
 20
-174.6977939698
 30
0.0
 40
63.02881268452133
100
AcDbArc
 50
12.5585150072
 51
35.4299183663
  0
ARC
  5
E7
330
1F
100
AcDbEntity
  8
0
  6
Continuous
 62
     7
370
    25
100
AcDbCircle
 10
463.4647303126
 20
-287.8546250366
 30
0.0
 40
60.33164919944195
100
AcDbArc
 50
262.8482764166
 51
286.7906053732
  0
ARC
  5
E8
330
1F
100
AcDbEntity
  8
0
  6
Continuous
 62
     7
370
    25
100
AcDbCircle
 10
568.1842018076
 20
-220.2206724366
 30
0.0
 40
47.2223439453745
100
AcDbArc
 50
15.4282977139
 51
26.9830472179
  0
ARC
  5
E9
330
1F
100
AcDbEntity
  8
0
  6
Continuous
 62
     7
370
    25
100
AcDbCircle
 10
523.1722171623
 20
-297.6663693926
 30
0.0
 40
47.64136134917017
100
AcDbArc
 50
273.0718937874
 51
284.5977417262
  0
LWPOLYLINE
  5
EA
330
1F
100
AcDbEntity
  8
0
  6
Continuous
 62
     7
370
    25
100
AcDbPolyline
 90
       54
 70
   128
 43
0.0
 10
671.8095360727
 20
-228.0272150116
 10
673.4643267124
 20
-229.0554948217
 10
675.9695037777
 20
-230.9204639876
 10
678.2987177506
 20
-233.0540942656
 10
680.4436235548
 20
-235.4487528669
 10
682.3965504641
 20
-238.0958610504
 10
684.1505021016
 20
-240.9859488757
 10
685.6991985869
 20
-244.1086704164
 10
687.0370976093
 20
-247.452843306
 10
688.1594102332
 20
-251.0065004511
 10
689.0621219713
 20
-254.7569158891
 10
689.741998053
 20
-258.6906686672
 10
690.1966097661
 20
-262.7936709826
 10
690.4243186519
 20
-267.0512436564
 10
690.4243186519
 20
-271.448139332
 10
690.1966097661
 20
-275.9686190892
 10
689.741998053
 20
-280.596504916
 10
689.0621219713
 20
-285.3152259096
 10
688.1594102332
 20
-290.1078901355
 10
687.0370976093
 20
-294.9573418544
 10
685.6991985869
 20
-299.8462200754
 10
684.1505021016
 20
-304.7570285174
 10
682.3965504641
 20
-309.6721857985
 10
680.4436235548
 20
-314.5740953967
 10
678.2987177506
 20
-319.4452095268
 10
675.9695037777
 20
-324.2680930154
 10
673.4643267124
 20
-329.0254780542
 10
670.7921506623
 20
-333.7003387202
 10
667.9625376939
 20
-338.2759366015
 10
664.985624124
 20
-342.7358922784
 10
661.8720599346
 20
-347.0642385507
 10
658.6329982354
 20
-351.2454903984
 10
655.2800267755
 20
-355.2646662689
 10
651.8251521385
 20
-359.1073945404
 10
648.2807404731
 20
-362.7599051506
 10
644.6594819319
 20
-366.2091292145
 10
640.9743379881
 20
-369.4427172707
 10
637.2384999465
 20
-372.4490936499
 10
633.4653421877
 20
-375.2175017189
 10
629.668372118
 20
-377.7380266894
 10
625.8611809437
 20
-380.0016483701
 10
622.0573977372
 20
-382.0002616007
 10
618.2706393879
 20
-383.726705144
 10
614.5144608821
 20
-385.1748147241
 10
610.8023087109
 20
-386.3393890858
 10
607.1474709853
 20
-387.2162735463
 10
603.5630303505
 20
-387.8023202565
 10
600.0618205219
 20
-388.0954376266
 10
596.6563736015
 20
-388.0945720706
 10
593.3588805651
 20
-387.7997247323
 10
590.1811451647
 20
-387.2119537628
 10
587.134544415
 20
-386.3333667118
 10
584.229981179
 20
-385.167105314
 10
581.8168475624
 20
-383.9160117236
  0
LWPOLYLINE
  5
EB
330
1F
100
AcDbEntity
  8
0
  6
Continuous
 62
     1
370
    25
100
AcDbPolyline
 90
       60
 70
   128
 43
0.0
 10
570.7375316386
 20
-130.061907749
 10
571.9281221571
 20
-131.1114856323
 10
574.5786900448
 20
-133.7495580578
 10
577.0430268139
 20
-136.6448167677
 10
579.3148157056
 20
-139.7898177585
 10
581.3882246498
 20
-143.1764965344
 10
583.2579273383
 20
-146.796158984
 10
584.919124299
 20
-150.6395148422
 10
586.3675534316
 20
-154.6966898589
 10
587.5995005452
 20
-158.9572775113
 10
588.6117940895
 20
-163.4103374828
 10
589.4018473015
 20
-168.0444367315
 10
589.9676213276
 20
-172.8476844682
 10
590.3076673697
 20
-177.8077485107
 10
590.4211108808
 20
-182.9118982477
 10
590.3076673697
 20
-188.1470270748
 10
589.9676213276
 20
-193.4996999206
 10
589.4018473015
 20
-198.9561764435
 10
588.6117940895
 20
-204.5024517145
 10
587.5995005452
 20
-210.1242809342
 10
586.3675534316
 20
-215.8072444479
 10
584.919124299
 20
-221.5367401448
 10
583.2579273383
 20
-227.2980731884
 10
581.3882246498
 20
-233.0764484128
 10
579.3148157056
 20
-238.8570341999
 10
577.0430268139
 20
-244.624986814
 10
574.5786900448
 20
-250.3655081944
 10
571.9281221571
 20
-256.063861163
 10
569.0981404037
 20
-261.7054150535
 10
566.0959993109
 20
-267.2756882914
 10
562.9294117518
 20
-272.7603788141
 10
559.6065015317
 20
-278.1454157788
 10
556.1357981189
 20
-283.4169686866
 10
552.5262155718
 20
-288.561514302
 10
548.7870156606
 20
-293.5658336072
 10
544.9278025982
 20
-298.4170878477
 10
540.9584756257
 20
-303.1028276542
 10
536.8892263779
 20
-307.6110188971
 10
532.7304993708
 20
-311.9300898323
 10
528.4929761962
 20
-316.0489523921
 10
524.1875254726
 20
-319.9570432459
 10
519.8252067966
 20
-323.6443154353
 10
515.4172141078
 20
-327.1013197383
 10
510.9748638348
 20
-330.3191689264
 10
506.5095596638
 20
-333.2896067736
 10
502.0327632325
 20
-336.0050067224
 10
497.5559668013
 20
-338.4584059122
 10
493.0906626302
 20
-340.6434985223
 10
488.6483123573
 20
-342.5546777849
 10
484.2403196684
 20
-344.1870335104
 10
479.8780009924
 20
-345.5363872567
 10
475.5725502689
 20
-346.5992639983
 10
471.3350270943
 20
-347.3729415552
 10
467.1763000871
 20
-347.8554346183
 10
463.1070508394
 20
-348.0454985517
 10
459.1377238669
 20
-347.9426461182
 10
455.2785108045
 20
-347.5471444361
 10
451.5393108932
 20
-346.8600134546
 10
447.9297283462
 20
-345.8830031395
 10
446.6109429196
 20
-345.4422063575
  0
ARC
  5
EC
330
1F
100
AcDbEntity
  8
0
  6
Continuous
 62
     1
370
    25
100
AcDbCircle
 10
596.5405512342
 20
-288.4955889694
 30
0.0
 40
168.8250114814707
100
AcDbArc
 50
133.5149325771
 51
166.4904443187
  0
LWPOLYLINE
  5
ED
330
1F
100
AcDbEntity
  8
0
  6
Continuous
 62
     1
370
    25
100
AcDbPolyline
 90
       42
 70
   128
 43
0.0
 10
588.4663848279
 20
-160.9930250009
 10
589.0943307239
 20
-163.887609491
 10
589.8830773836
 20
-168.5140690069
 10
590.4479136423
 20
-173.309398716
 10
590.7874012387
 20
-178.2612831672
 10
590.9006603574
 20
-183.3570145628
 10
590.7874012387
 20
-188.5835121533
 10
590.4479136423
 20
-193.9273606401
 10
589.8830773836
 20
-199.3748364122
 10
589.0943307239
 20
-204.9119634373
 10
588.0837019802
 20
-210.5245273333
 10
586.853788452
 20
-216.1981160513
 10
585.4077458847
 20
-221.918167023
 10
583.7492884692
 20
-227.6699975795
 10
581.8826677689
 20
-233.4388460139
 10
579.8126779878
 20
-239.209898959
 10
577.5446348973
 20
-244.9683461385
 10
575.0843600307
 20
-250.6993986161
 10
572.4381648786
 20
-256.3883526737
 10
569.6128508886
 20
-262.0206050201
 10
566.6156620505
 20
-267.5816862472
 10
563.4542901639
 20
-273.0573429602
 10
560.1368643024
 20
-278.4334951911
 10
556.6718823243
 20
-283.696355024
 10
553.0682530196
 20
-288.8324144321
 10
549.3352223533
 20
-293.8284817728
 10
545.4823681967
 20
-298.6717395823
 10
541.5195871566
 20
-303.3497521791
 10
537.4570471603
 20
-307.8505112873
 10
533.3051795528
 20
-312.1624588498
 10
529.0746422183
 20
-316.2745326524
 10
524.7762932387
 20
-320.1761754473
 10
520.4211658688
 20
-323.8573737339
 10
516.0204421942
 20
-327.3086729658
 10
511.5854175703
 20
-330.5212102476
 10
507.1274759269
 20
-333.4867529255
 10
502.6580617796
 20
-336.1976782429
 10
498.1886476323
 20
-338.6470286605
 10
493.7307059888
 20
-340.8285158465
 10
489.295681365
 20
-342.736549001
 10
484.8949576904
 20
-344.3662171722
 10
480.8930248622
 20
-345.614147578
  0
LWPOLYLINE
  5
EE
330
1F
100
AcDbEntity
  8
0
  6
Continuous
 62
     1
370
    25
100
AcDbPolyline
 90
       38
 70
   128
 43
0.0
 10
613.7048475811
 20
-207.6580064752
 10
613.7580369039
 20
-207.8485058995
 10
614.6628138376
 20
-211.6075132409
 10
615.3442493527
 20
-215.5502730879
 10
615.7998936636
 20
-219.6626771029
 10
616.028129385
 20
-223.9299974394
 10
616.028129385
 20
-228.3369631647
 10
615.7998936636
 20
-232.8677988561
 10
615.3442493527
 20
-237.5062785946
 10
614.6628138376
 20
-242.2358071404
 10
613.7580369039
 20
-247.0394476939
 10
612.6331480539
 20
-251.900008013
 10
611.2921828482
 20
-256.8000860437
 10
609.7399407594
 20
-261.7221398783
 10
607.9819746345
 20
-266.6485516335
 10
606.0245748909
 20
-271.5616882861
 10
603.8747589788
 20
-276.4439564252
 10
601.5402081613
 20
-281.2778874179
 10
599.0292938562
 20
-286.0461678307
 10
596.3509959764
 20
-290.7317352397
 10
593.5149055641
 20
-295.317807129
 10
590.5311721074
 20
-299.7879782246
 10
587.4104798322
 20
-304.1262433059
 10
584.1639976535
 20
-308.3170656433
 10
580.8033475646
 20
-312.3454499989
 10
577.3405598568
 20
-316.1969745626
 10
573.7880309718
 20
-319.8578517843
 10
570.1584787211
 20
-323.3149785609
 10
566.4648948708
 20
-326.5559696918
 10
562.720501019
 20
-329.5692381038
 10
558.9387024977
 20
-332.343984961
 10
555.1330360185
 20
-334.8702785572
 10
551.3171255503
 20
-337.1390858718
 10
547.5046309524
 20
-339.1422718038
 10
543.7091995719
 20
-340.8726757846
 10
539.9444184993
 20
-342.3240967535
 10
536.2237645184
 20
-343.4913463864
 10
535.1793274168
 20
-343.7698249522
  0
ARC
  5
EF
330
1F
100
AcDbEntity
  8
0
  6
Continuous
 62
     1
370
    25
100
AcDbCircle
 10
598.4914385461
 20
-289.6218194429
 30
0.0
 40
168.9653355724186
100
AcDbArc
 50
134.8203932885
 51
165.184980794
  0
LWPOLYLINE
  5
F0
330
1F
100
AcDbEntity
  8
0
  6
Continuous
 62
     1
370
    25
100
AcDbPolyline
 90
       45
 70
   128
 43
0.0
 10
608.7188464263
 20
-195.7860936386
 10
610.2339255315
 20
-198.3148175023
 10
611.7826220168
 20
-201.437539043
 10
613.1205210392
 20
-204.7817119326
 10
614.2428336631
 20
-208.3353690777
 10
615.1455454012
 20
-212.0857845157
 10
615.8254214829
 20
-216.0195372938
 10
616.280033196
 20
-220.1225396092
 10
616.5077420818
 20
-224.380112283
 10
616.5077420818
 20
-228.7770079586
 10
616.280033196
 20
-233.2974877158
 10
615.8254214829
 20
-237.9253735427
 10
615.1455454012
 20
-242.6440945362
 10
614.2428336631
 20
-247.4367587621
 10
613.1205210392
 20
-252.2862104811
 10
611.7826220168
 20
-257.175088702
 10
610.2339255315
 20
-262.085897144
 10
608.479973894
 20
-267.0010544252
 10
606.5270469847
 20
-271.9029640234
 10
604.3821411804
 20
-276.7740781535
 10
602.0529272076
 20
-281.5969616421
 10
599.5477501423
 20
-286.3543466809
 10
596.8755740922
 20
-291.0292073468
 10
594.0459611237
 20
-295.6048052281
 10
591.0690475539
 20
-300.0647609051
 10
587.9554833645
 20
-304.3931071773
 10
584.7164216652
 20
-308.574359025
 10
581.3634502054
 20
-312.5935348956
 10
577.9085755684
 20
-316.436263167
 10
574.3641639029
 20
-320.0887737772
 10
570.7429053618
 20
-323.5379978412
 10
567.0577614179
 20
-326.7715858973
 10
563.3219233764
 20
-329.7779622765
 10
559.5487656176
 20
-332.5463703456
 10
555.7517955479
 20
-335.066895316
 10
551.9446043735
 20
-337.3305169967
 10
548.140821167
 20
-339.3291302273
 10
544.3540628178
 20
-341.0555737707
 10
540.597884312
 20
-342.5036833507
 10
536.8857321408
 20
-343.6682577124
 10
533.2308944152
 20
-344.545142173
 10
529.6464537804
 20
-345.1311888831
 10
526.1452439518
 20
-345.4243062533
 10
522.7397970313
 20
-345.4234406972
 10
522.3462587359
 20
-345.4040104456
  0
ENDSEC
  0
SECTION
  2
OBJECTS
  0
DICTIONARY
  5
C
330
0
100
AcDbDictionary
281
     1
  3
ACAD_GROUP
350
D
  3
ACAD_LAYOUT
350
1A
  3
ACAD_MLINESTYLE
350
17
  3
ACAD_PLOTSETTINGS
350
19
  3
ACAD_PLOTSTYLENAME
350
E
  3
ACAD_SCALELIST
350
47
  0
DICTIONARY
  5
D
102
{ACAD_REACTORS
330
C
102
}
330
C
100
AcDbDictionary
281
     1
  0
DICTIONARY
  5
1A
102
{ACAD_REACTORS
330
C
102
}
330
C
100
AcDbDictionary
281
     1
  3
Layout1
350
1E
  3
Layout2
350
26
  3
Model
350
22
  0
DICTIONARY
  5
17
102
{ACAD_REACTORS
330
C
102
}
330
C
100
AcDbDictionary
281
     1
  3
Standard
350
18
  0
DICTIONARY
  5
19
102
{ACAD_REACTORS
330
C
102
}
330
C
100
AcDbDictionary
281
     1
  0
ACDBDICTIONARYWDFLT
  5
E
102
{ACAD_REACTORS
330
C
102
}
330
C
100
AcDbDictionary
281
     1
  3
Normal
350
F
100
AcDbDictionaryWithDefault
340
F
  0
DICTIONARY
  5
47
102
{ACAD_REACTORS
330
C
102
}
330
C
100
AcDbDictionary
281
     1
  3
A0
350
48
  3
A1
350
49
  3
A2
350
4A
  3
A3
350
4B
  3
A4
350
4C
  3
A5
350
4D
  3
A6
350
4E
  3
A7
350
4F
  3
A8
350
50
  3
A9
350
51
  3
B0
350
52
  3
B1
350
53
  3
B2
350
54
  3
B3
350
55
  3
B4
350
56
  3
B5
350
57
  3
B6
350
58
  3
B7
350
59
  3
B8
350
5A
  3
B9
350
5B
  3
C0
350
5C
  3
C1
350
5D
  3
C2
350
5E
  3
C3
350
5F
  3
C4
350
60
  3
C5
350
61
  3
C6
350
62
  3
C7
350
63
  3
C8
350
64
  3
C9
350
65
  3
D0
350
66
  3
D1
350
67
  3
D2
350
68
  0
LAYOUT
  5
1E
102
{ACAD_REACTORS
330
1A
102
}
330
1A
100
AcDbPlotSettings
  1

  2
none_device
  4

  6

 40
0.0
 41
0.0
 42
0.0
 43
0.0
 44
0.0
 45
0.0
 46
0.0
 47
0.0
 48
0.0
 49
0.0
140
0.0
141
0.0
142
1.0
143
1.0
 70
   688
 72
     1
 73
     0
 74
     5
  7

 75
    16
147
1.0
148
0.0
149
0.0
100
AcDbLayout
  1
Layout1
 70
     1
 71
     1
 10
0.0
 20
0.0
 11
420.0
 21
297.0
 12
0.0
 22
0.0
 32
0.0
 14
1.0000000000E+20
 24
1.0000000000E+20
 34
1.0000000000E+20
 15
-1.0000000000E+20
 25
-1.0000000000E+20
 35
-1.0000000000E+20
146
0.0
 13
0.0
 23
0.0
 33
0.0
 16
1.0
 26
0.0
 36
0.0
 17
0.0
 27
1.0
 37
0.0
 76
     0
330
1B
  0
LAYOUT
  5
26
102
{ACAD_REACTORS
330
1A
102
}
330
1A
100
AcDbPlotSettings
  1

  2
none_device
  4

  6

 40
0.0
 41
0.0
 42
0.0
 43
0.0
 44
0.0
 45
0.0
 46
0.0
 47
0.0
 48
0.0
 49
0.0
140
0.0
141
0.0
142
1.0
143
1.0
 70
   688
 72
     1
 73
     0
 74
     5
  7

 75
    16
147
1.0
148
0.0
149
0.0
100
AcDbLayout
  1
Layout2
 70
     1
 71
     2
 10
0.0
 20
0.0
 11
0.0
 21
0.0
 12
0.0
 22
0.0
 32
0.0
 14
0.0
 24
0.0
 34
0.0
 15
0.0
 25
0.0
 35
0.0
146
0.0
 13
0.0
 23
0.0
 33
0.0
 16
1.0
 26
0.0
 36
0.0
 17
0.0
 27
1.0
 37
0.0
 76
     0
330
23
  0
LAYOUT
  5
22
102
{ACAD_REACTORS
330
1A
102
}
330
1A
100
AcDbPlotSettings
  1

  2
none_device
  4
Letter_(8.50_x_11.00_Inches)
  6

 40
6.35
 41
6.35
 42
6.35000508
 43
6.35000508
 44
215.9
 45
279.4
 46
0.0
 47
0.0
 48
0.0
 49
0.0
140
0.0
141
0.0
142
1.0
143
1.0
 70
  1712
 72
     1
 73
     0
 74
     0
  7

 75
     0
147
1.0
148
0.0
149
0.0
100
AcDbLayout
  1
Model
 70
     1
 71
     0
 10
0.0
 20
0.0
 11
279.4
 21
215.9
 12
0.0
 22
0.0
 32
0.0
 14
0.0
 24
0.0
 34
0.0
 15
279.4
 25
215.9
 35
0.0
146
0.0
 13
0.0
 23
0.0
 33
0.0
 16
1.0
 26
0.0
 36
0.0
 17
0.0
 27
1.0
 37
0.0
 76
     0
330
1F
331
29
  0
MLINESTYLE
  5
18
102
{ACAD_REACTORS
330
17
102
}
330
17
100
AcDbMlineStyle
  2
Standard
 70
     0
  3

 62
   256
 51
90.0
 52
90.0
 71
     2
 49
0.5
 62
   256
  6
BYLAYER
 49
-0.5
 62
   256
  6
BYLAYER
  0
ACDBPLACEHOLDER
  5
F
102
{ACAD_REACTORS
330
E
102
}
330
E
  0
SCALE
  5
48
102
{ACAD_REACTORS
330
47
102
}
330
47
100
AcDbScale
 70
     0
300
1:1
140
1.0
141
1.0
290
     1
  0
SCALE
  5
49
102
{ACAD_REACTORS
330
47
102
}
330
47
100
AcDbScale
 70
     0
300
1:2
140
1.0
141
2.0
290
     0
  0
SCALE
  5
4A
102
{ACAD_REACTORS
330
47
102
}
330
47
100
AcDbScale
 70
     0
300
1:4
140
1.0
141
4.0
290
     0
  0
SCALE
  5
4B
102
{ACAD_REACTORS
330
47
102
}
330
47
100
AcDbScale
 70
     0
300
1:5
140
1.0
141
5.0
290
     0
  0
SCALE
  5
4C
102
{ACAD_REACTORS
330
47
102
}
330
47
100
AcDbScale
 70
     0
300
1:8
140
1.0
141
8.0
290
     0
  0
SCALE
  5
4D
102
{ACAD_REACTORS
330
47
102
}
330
47
100
AcDbScale
 70
     0
300
1:10
140
1.0
141
10.0
290
     0
  0
SCALE
  5
4E
102
{ACAD_REACTORS
330
47
102
}
330
47
100
AcDbScale
 70
     0
300
1:16
140
1.0
141
16.0
290
     0
  0
SCALE
  5
4F
102
{ACAD_REACTORS
330
47
102
}
330
47
100
AcDbScale
 70
     0
300
1:20
140
1.0
141
20.0
290
     0
  0
SCALE
  5
50
102
{ACAD_REACTORS
330
47
102
}
330
47
100
AcDbScale
 70
     0
300
1:30
140
1.0
141
30.0
290
     0
  0
SCALE
  5
51
102
{ACAD_REACTORS
330
47
102
}
330
47
100
AcDbScale
 70
     0
300
1:40
140
1.0
141
40.0
290
     0
  0
SCALE
  5
52
102
{ACAD_REACTORS
330
47
102
}
330
47
100
AcDbScale
 70
     0
300
1:50
140
1.0
141
50.0
290
     0
  0
SCALE
  5
53
102
{ACAD_REACTORS
330
47
102
}
330
47
100
AcDbScale
 70
     0
300
1:100
140
1.0
141
100.0
290
     0
  0
SCALE
  5
54
102
{ACAD_REACTORS
330
47
102
}
330
47
100
AcDbScale
 70
     0
300
2:1
140
2.0
141
1.0
290
     0
  0
SCALE
  5
55
102
{ACAD_REACTORS
330
47
102
}
330
47
100
AcDbScale
 70
     0
300
4:1
140
4.0
141
1.0
290
     0
  0
SCALE
  5
56
102
{ACAD_REACTORS
330
47
102
}
330
47
100
AcDbScale
 70
     0
300
8:1
140
8.0
141
1.0
290
     0
  0
SCALE
  5
57
102
{ACAD_REACTORS
330
47
102
}
330
47
100
AcDbScale
 70
     0
300
10:1
140
10.0
141
1.0
290
     0
  0
SCALE
  5
58
102
{ACAD_REACTORS
330
47
102
}
330
47
100
AcDbScale
 70
     0
300
100:1
140
100.0
141
1.0
290
     0
  0
SCALE
  5
59
102
{ACAD_REACTORS
330
47
102
}
330
47
100
AcDbScale
 70
     0
300
1/128" = 1'-0"
140
0.0078125
141
12.0
290
     0
  0
SCALE
  5
5A
102
{ACAD_REACTORS
330
47
102
}
330
47
100
AcDbScale
 70
     0
300
1/64" = 1'-0"
140
0.015625
141
12.0
290
     0
  0
SCALE
  5
5B
102
{ACAD_REACTORS
330
47
102
}
330
47
100
AcDbScale
 70
     0
300
1/32" = 1'-0"
140
0.03125
141
12.0
290
     0
  0
SCALE
  5
5C
102
{ACAD_REACTORS
330
47
102
}
330
47
100
AcDbScale
 70
     0
300
1/16" = 1'-0"
140
0.0625
141
12.0
290
     0
  0
SCALE
  5
5D
102
{ACAD_REACTORS
330
47
102
}
330
47
100
AcDbScale
 70
     0
300
3/32" = 1'-0"
140
0.09375
141
12.0
290
     0
  0
SCALE
  5
5E
102
{ACAD_REACTORS
330
47
102
}
330
47
100
AcDbScale
 70
     0
300
1/8" = 1'-0"
140
0.125
141
12.0
290
     0
  0
SCALE
  5
5F
102
{ACAD_REACTORS
330
47
102
}
330
47
100
AcDbScale
 70
     0
300
3/16" = 1'-0"
140
0.1875
141
12.0
290
     0
  0
SCALE
  5
60
102
{ACAD_REACTORS
330
47
102
}
330
47
100
AcDbScale
 70
     0
300
1/4" = 1'-0"
140
0.25
141
12.0
290
     0
  0
SCALE
  5
61
102
{ACAD_REACTORS
330
47
102
}
330
47
100
AcDbScale
 70
     0
300
3/8" = 1'-0"
140
0.375
141
12.0
290
     0
  0
SCALE
  5
62
102
{ACAD_REACTORS
330
47
102
}
330
47
100
AcDbScale
 70
     0
300
1/2" = 1'-0"
140
0.5
141
12.0
290
     0
  0
SCALE
  5
63
102
{ACAD_REACTORS
330
47
102
}
330
47
100
AcDbScale
 70
     0
300
3/4" = 1'-0"
140
0.75
141
12.0
290
     0
  0
SCALE
  5
64
102
{ACAD_REACTORS
330
47
102
}
330
47
100
AcDbScale
 70
     0
300
1" = 1'-0"
140
1.0
141
12.0
290
     0
  0
SCALE
  5
65
102
{ACAD_REACTORS
330
47
102
}
330
47
100
AcDbScale
 70
     0
300
1-1/2" = 1'-0"
140
1.5
141
12.0
290
     0
  0
SCALE
  5
66
102
{ACAD_REACTORS
330
47
102
}
330
47
100
AcDbScale
 70
     0
300
3" = 1'-0"
140
3.0
141
12.0
290
     0
  0
SCALE
  5
67
102
{ACAD_REACTORS
330
47
102
}
330
47
100
AcDbScale
 70
     0
300
6" = 1'-0"
140
6.0
141
12.0
290
     0
  0
SCALE
  5
68
102
{ACAD_REACTORS
330
47
102
}
330
47
100
AcDbScale
 70
     0
300
1'-0" = 1'-0"
140
12.0
141
12.0
290
     0
  0
ENDSEC
  0
EOF
